This website uses cookies to ensure you get the best experience on our website. Learn more

Playlist of Hollow Coves

x
  • desc

    Hollow Coves - The Woods

    4:03

    Stream or Buy 'The Woods' :

    Production by Miraki Creative



  • desc

    Hollow Coves - Ran Away

    4:20

    Facebook -
    Twitter -
    Instagram -

    Listen to Ran Away on:
    Spotify:
    Apple:

    Fall EU / UK tour :

    Nov 1 - Berlin, DE
    Nov 2 - Leipzig, DE
    Nov 4 - Zurich, CH
    Nov 5 - Frankfurt, DE
    Nov 7 - Prague, CZ
    Nov 8 - Munich, DE
    Nov 12 - Amsterdam, NL
    Nov 13 - Hamburg, DE
    Nov 15 - Cologne, DE
    Nov 16 - Paris, FR
    Nov 17 - Hasselt, BE
    Nov 19 - London, UK
    Nov 20 - Manchester, UK
    Nov 21 - Leeds, UK
    Nov 23 - Dublin, IE
    Nov 24 - Glasgow, UK

    ** Tickets on sale Friday, June 21 at **

  • x
  • desc

    Hollow Coves - Coastline

    4:20

    Follow us on Instagram: @HollowCoves

    Facebook -
    Twitter -
    Instagram -

    Listen to Coastline on:
    Spotify:
    Apple:
    Google:



    Video: Sam Fregonese

  • desc

    Hollow Coves - Coastline

    3:54

    WOGN - A daily wave of indie music

    Support the artist





    Picture
    © Tanner Smith :

    Wave Of Good Noise


    We do not own the rights of the music. If any producer or label has an issue with this song, please get in contact with us and we will delete it immediately.

    Lyrics :

    Verse 1
    I'm leaving home for the coastlineSome place under the sunI feel my heart for the first time
    ‘Cause now I'm moving on, yeah i'm moving on

    and there's a place that i've dreamed of
    where I can free my mindI hear the sounds of the season
    And lose all sense of time

    Chorus
    I'm moving far awayto a sunny placewhere it's just you and me
    feels like we're in a dream
    you know what i mean

    Verse 2
    The summer air by the sea sidethe way it fills our lungs
    the fire burns in the night skyt
    his life will keep us young, yeah keep us young

    and we will sleep by the ocean
    Our hearts will move with the tide
    And we will wake in the morning
    To see the sun paint the sky

  • x
  • desc

    Hollow Coves - These Memories

    5:14

    When writing this song Matt and I had both previously spent time traveling through different parts of the world. The song was written while reflecting on memories from our travels. All the beautiful locations, the experiences, and the people we met along the way. While Matt was in Europe he shot videos of the locations he traveled through on a little hand held camera he had with him. While looking through some of these videos we decided it would be cool to make our own music video out of some of the actual memories that inspired the song. We hope you enjoy some of the imagery behind our inspiration for this song. Much love. Hollow Coves

  • desc

    Hollow Coves - These Memories

    5:10

    Song These Memories by Hollow Coves
    Album : Wanderlust, 2017

    Join SleepMusic on






    Join Hollow Coves on





  • x
  • desc

    Hollow Coves - The Woods

    3:59

    The Woods, a place to relax. What's your favorite place?
    Apeiron - Music for Infinity.
    ∞ Spotify:

    Never want to miss an upload? Click the notification bell!

    » Available at:
    iTunes:
    Spotify:

    » Follow Hollow Coves:







    » Picture: Caleb George

    Lyrics for Hollow Coves - The Woods can be found in the comments.
    Alternatively, turn on captions (CC) and enjoy the lyrics on screen!

    Your native language is missing?
    - click on the three dots below the video
    - click Add translation and help me to improve our community!

    #ApeironSound

  • desc

    Hollow Coves - Home

    3:39

    Follow us:
    Facebook -
    Twitter -
    Instagram -

    'Home' l From Wanderlust EP

    Stream / Download 'Home' -
    Apple Music:
    Spotify:
    Amazon:
    Google Play:

    Directed and shot by Greg McCahon


    Sound recordist and audio post by Alexander Bradley

  • desc

    Hollow Coves - Ran Away Audio

    4:16

    Stream or Buy 'Ran Away' :


  • x
  • desc

    Hollow Coves - We Will Run | Sofar NYC

    4:32

    Hollow Coves performing “We Will Run” at Sofar NYC on October 6th, 2018.

    Sofar puts on hundreds of intimate shows each month around the world. Find an upcoming date in your city:

    For a new gig every day, along with playlists, features and more, subscribe to Sofar here:

    Find us on Facebook and Twitter for more information -







    Artist: Hollow Coves



    Filmed by: Jacob Gonzalez

    Edited by: Jacob Gonzalez

    Audio by: Jake Cheriff

    This event was hosted by: Motospirits

  • desc

    Hollow Coves - Ran Away

    4:13

    Apeiron - Music for Infinity.
    ∞ Spotify:
    ∞ Facebook:

    » Available at:
    iTunes:
    Spotify:

    » Follow Hollow Coves:






    » Picture: Šárka Jonášová
    » Subtitles: Cristian_amaya97 (Instagram)

    ✖ Become part of the Infinity:
    ∞ Facebook
    ∞ Spotify
    ∞ Instagram
    ∞ SoundCloud
    ∞ Twitter

    Use #ApeironSound to give me a chance to see your posts.

    Activate notifications for Apeiron by pressing the bell besides the subscription button and never miss a song!

    Lyrics for Hollow Coves - Ran Away can be found in the comments.
    Alternatively, turn on captions (CC) and enjoy the lyrics on screen!

  • desc

    Hollow Coves - Home

    3:25

    WOGN - A daily wave of indie music

    Support the artist




    Picture
    © Harli Marten Aas :

    Wave Of Good Noise


    We do not own the rights of the music. If any producer or label has an issue with this song, please get in contact with us and we will delete it immediately.

  • desc

    Hollow Coves - Home

    3:40

    Just stumbled across this old video from 2016. At the time we were on a little tour down the east coast of Australia. On this day we had been looking for a place to record a video. Time was running out because the sun was going down so we ended up turning down a random path along the side of a corn field in hope of finding something at the end. When we got to the end we found these two chairs set up by the waterside so we decided it was meant to be. We set up the microphones as fast as we could and managed to film this live video in the last light of the day. We ended up recording a better live version of this song which is up on our YouTube channel. However, I think there is something really nice about the stillness in this video and thought you guys might like to see it.

    Follow us:
    Instagram -

    'Home' l From Wanderlust EP

    Stream / Download 'Home' -
    Spotify:
    Apple Music:
    Amazon:
    Google Play:

  • desc

    Hollow Coves - The Woods

    4:05

    Follow us:
    Facebook -
    Twitter -
    Instagram -

    Acoustic version of 'The Woods' l From Wanderlust EP

    Stream / Download 'The Woods - acoustic' -
    Apple Music:
    Spotify:
    Amazon:
    Google Play:

    Directed and shot by Greg McCahon


    Sound recordist and audio post by Alexander Bradley

  • desc

    Hollow Coves x Indie Folk Central ✨ Collaboration playlist

    1:16:42

    INTRODUCING A NEW SERIES ✨ We curated this playlist together with Ryan and Matt from the indie folk band Hollow Coves. Some of the finest indie-folk tunes are included. (Acoustic, Indie, Folk) Subscribe: ⬇️ tracklist & info in the description ⬇️

    📖 About Hollow Coves:
    Hollow Coves is the project of Ryan Henderson and Matt Carins. After meeting in 2013 through mutual friends and a shared love of acoustic music, the boys began writing together with no real expectations for where it might lead. And now, six years later, Ryan and Matt’s memories from their travels across all corners of the globe have led to a range of new music influenced by their journeys. Blending an earthy folk sound, acoustic melodies & vocal harmonies; Matt and Ryan take turns delivering lyrics of reflection, frequently harmonizing as their voices blend together and complement each other.

    ❤️ Follow Hollow Coves:




    🎧 Enjoy more of Hollow Coves music:
    ╎Spotify:
    ╎iTunes:

    📖 About Indie Folk Central:
    As the best source for indie folk music, we supply our listeners with new songs each and every month through our YouTube, SoundCloud and Spotify channel.

    ❤️ Follow Indie Folk Central:



    🎧 Enjoy more of our music
    ╎SoundCloud:
    ╎Spotify:

    ✏️ Get in contact:
    ╎Mail: rufus@indiefolkcentral.com
    ╎Song submissions:

    🎶 Tracklist & artist info

    0:00 Indie Folk Central - Discover the best new indie folk
    ╎ SoundCloud:

    0:10 Hollow Coves - Home



    Listen on Spotify:

    3:27 The Paper Kites - Turns Within Me, Turns Without Me



    Listen on Spotify:

    7:20 Old Sea Brigade - Love Brought Weight



    Listen on Spotify:

    10:22 Hollow Coves - Coastline
    (URLs are included above)

    14:12 Riley Pearce - Brave


    Listen on Spotify:

    18:18 Henry Jamison - The Rains



    Listen on Spotify:

    21:50 Brolly - I Need Heaven



    Listen on Spotify:

    25:38 Austin Basham - All Is Well



    Listen on Spotify:

    29:50 Hollow Coves - The Woods - Acoustic
    (URLs are included above)

    33:45 Garrett Kato - I'll Be Around - Acoustic



    Listen on Spotify:

    37:00 Rosie Carney - Bare



    Listen on Spotify:

    40:53 Harrison Storm - Sense of Home



    Listen on Spotify:

    45:14 Hollow Coves - Ran Away
    (URLs are included above)

    49:27 Meadows - The Only Boy Awake



    Listen on Spotify:

    52:09 The Paper Kites - Paint
    (URLs are included above)

    55:20 Austin Basham - Frames
    (URLs are included above)

    59:06 Kim Janssen - Dynasty



    Listen on Spotify:

    1:02:32 Hollow Coves - These Memories
    (URLs are included above)

    1:07:32 Brolly - Man with a Cup
    (URLs are included above)

    1:12:08 SYML - Girl (Acoustic)



    Listen on Spotify:

    1:15:41 Hollow Coves - Interlude
    (URLs are included above)

    📽️ Enjoy some more of our music videos:
    New Indie Folk; January 2019


    Best Indie Folk of 2018:


    ✌️ Much love from The Netherlands!

  • x
  • desc

    Hollow Coves - Coastline

    3:54

    Apeiron - Music for Infinity.
    ∞ Spotify:
    ∞ Facebook:

    » Available at:
    iTunes:
    Spotify:

    » Follow Hollow Coves:





    » Picture: Tim Marshall


    ✖ Become part of the Infinity:
    ∞ Facebook
    ∞ Spotify
    ∞ Instagram
    ∞ SoundCloud
    ∞ Twitter

    Use #ApeironSound to give me a chance to see your posts.

    Activate notifications for Apeiron by pressing the bell besides the subscription button and never miss a song!

    Lyrics for Hollow Coves - Coastline can be found in the comments.
    Alternatively, turn on captions (CC) and enjoy the lyrics on screen!

  • desc

    Hollow Coves - We Will Run

    4:17

    Hollow Coves is an Indie Folk band formed in Brisbane, Australia in 2013 by Ryan Henderson and Matt Carins. Delivering an earthy folk sound, the band meshes simple acoustic melodies, vocal harmonies, and impactful themes. After releasing Drifting, their first EP, in late 2014, the band quickly garnered an international following with their hit single ‘The Woods’. Now, they are finally back with another amazing EP called 'Wanderlust'. 'We Will Run' is the second track and one of my favorites!

    Get the new EP!


    Check them out on Social Media!



    Lyrics:
    Old friend of mine,
    Down by the sea side,
    Skipping stones,
    We watch the changing tides,
    Far from home,
    Now we sleep in rolls
    Stories told,
    Walkin down windy roads

    The water flow,
    Down in the valley,
    Where we arose,
    And hike the mountain side,
    Cobblestones,
    All through the cities,
    On the road,
    We've come to know that
    Time is all we have

    So we go.
    And won't look back.

    We will run
    With a heart that is oh so young
    We have come
    To a place we can go as one
    We will run

    We found a place
    Among those five towns
    Along the coast
    Where colors came to life
    On the road
    So many faces
    Both young and old
    We've come to know that
    Time is all we have

    So we go.
    And won't look back

    We will run
    With a heart that is oh so young
    We have come
    To a place we can go as one

    And ohh, my life
    Was lost in time
    But now
    I see
    My heart is free

    We will run
    With a heart that is oh so young
    We have come
    To a place we can go as one [2x]

    I do not own this song, all rights belong to their respective owners.

    Enjoy! :)

  • desc

    Hollow Coves - These Memories | Monaco Sessions

    4:17

    Great musicians on a special spot with a fascinating acoustic. You want to see more of Hollow Coves and other folk and indie stuff? Check our folk-playlist:



    WEBSITE -
    FACEBOOK -

    SUBSCRIBE -
    FACEBOOK -
    INSTAGRAM -
    WEBSITE -

    #monacosessions
    #indiemusic
    #alternative

  • desc

    Hollow Coves - Ran Away | SleepMusic

    4:17

    Song Ran Away by Hollow Coves
    Album : Ran Away 2018

    ▼ Join SleepMusic ▼






    ▼ Join Hollow Coves ▼






    ▼ Lyrics ▼


    There was a time when I saw you
    There's someone that I could hold onto
    I wanted to be there for you
    Now we're slowly grown apart
    You had the whole world headed to you
    But you started to change and threw it away
    For a lie that was caught in the shadows
    Pulling you away from home
    Leaving all you've ever known

    You ran away
    And you lost your way
    You ran away
    And it's not the same

    After all of these things that we've been through
    Now I feel like I don't even know you
    You're a shell of the man that I once knew
    Trying to find his way back home
    Hoping that the ache will go

    You ran away
    And you lost your way
    You ran away
    And it's not the same

    My broken hope
    And he's really gone
    You've come and you've gone
    Now I'm all alone

    My broken hope
    And he's really gone
    You've gone and you've come
    Now I'm all alone

    You ran away
    And you lost your way
    You ran away
    And it's not the same

  • desc

    Hollow Coves - We Will Run • Mokum Sessions #284

    4:04

    Subscribe to discover more great music:

    At festival The Brave we were delighted to meet the guys from Hollow Coves. They played us their song We Will Run from their album Wanderlust.

    Credits to the Fruittuin van West for this beautiful location and Festival The Brave for inviting us

    Mokum Sessions strives to deliver in your face acoustic music videos of talented musicians, filmed in beautiful Amsterdam.

    Produced by Wheelhouse Productions:

    Find us on:
    Facebook •
    Twitter •
    Instagram •
    Spotify •
    Website •

    Find Hollow Coves:
    Facebook •
    Twitter •
    Instagram •
    Website •

  • x
  • desc

    Interlude

    1:01

    Provided to YouTube by Nettwerk Records

    Interlude · Hollow Coves

    Wanderlust

    ℗ 2017 Hollow Coves Music under exclusive license to Nettwerk Music Group Inc.

    Producer: Hayden Smith

    Auto-generated by YouTube.

  • desc

    Hollow Coves - Heatwave

    4:05

    A song Heatwave by great band Hollow Coves from EP Drifting.
    I don´t own any rights of this song or image. Credits belong to the artist. In case of copyright issues, send me message please.
    Follow Hollow Coves:




    Thank you for watching. If you like it, subscribe my channel. And give me some tips for other songs.

  • desc

    Hollow Coves - We Will Run

    4:17

    Song We Will Run by Hollow Coves
    Album : Wanderlust, 2017

    Join SleepMusic on






    Join Hollow Coves on








    Lyrics

    Old friend of mine,
    Down by the sea side,
    Skipping stones,
    We watch the changing tides,
    Far from home,
    Now we sleep in rolls
    Stories told,
    Walkin down windy roads

    The water flow,
    Down in the valley,
    Where we arose,
    And hike the mountain side,
    Cobblestones,
    All through the cities,
    On the road,
    We've come to know that
    Time is all we have

    So we go.
    And won't look back.

    We will run
    With a heart that is oh so young
    We have come
    To a place we can go as one
    We will run

    We found a place
    Among those five towns
    Along the coast
    Where colors came to life
    On the road
    So many faces
    Both young and old
    We've come to klnow that
    Time is all we have

    So we go.
    And won't look back

    We will run
    With a heart that is oh so young
    We have come
    To a place we can go as one
    And ohh
    My life
    Was lost in time
    But now
    I see
    My heart is free

    We will run
    With a heart that is oh so young
    We have come
    To a place we can go as one

    We will run
    With a heart that is oh so young
    We have come
    To a place we can go as one

  • desc

    Hollow Coves - Coastline

    3:55

    Song Coastlne by Hollow Coves
    Album : Wanderlust, 2017

    Join SleepMusic on







    Join Hollow Coves on







    Lyrics

    I'm leaving home for the costline
    Some place under the sun
    I feel my heart for the first time
    'Cuz now I'm moving on oh yeah
    I'm moving on

    And there's a pleace I dream of
    Where I can free my mind
    I hear the sounds of the season
    And lose all sense of time

    I'm moving for awake
    To a sunny place
    Where is just you and me
    Feels like we're in a trip
    You know what I mean

    The summer end by the sea side
    The way it feels so lost
    The Fire burns in the night sky
    This life will keep us young yeah, keep us young

    And we were sleep by the ocean
    Our heart will move with time
    And we will wake in the morning
    To see the sun painted sky

    I'm moving for awake
    To a sunny place
    Where is just you and me
    Feels like we're in a trip
    You know what I mean

    I'm moving for awake
    To a sunny place
    Where is just you and me
    Feels like we're in a trip
    You know what I mean

    I'm moving for awake
    To a sunny place
    Where is just you and me
    Feels like we're in a trip
    You know what I mean

  • desc

    Hollow Coves - The Woods | Småll Sessions

    4:38

    Hollow Coves perform The Woods for Småll Sessions.
    Subscribe to never miss a video again:
    Watch all the sessions:

    Småll Sessions is a music channel based in Berlin. We record live sessions and present you brand new artists at our live events.

    We love to share our music taste with you.
    Maybe you can even find new music that you hadn't discovered before.

    HOLLOW COVES:
    ► Website:
    ► Instagram:
    ► Facebook:
    ► Twitter:
    ► Soundcloud:

    SMÅLL SESSIONS
    Website |
    Facebook |
    Instagram |
    Twitter |

  • desc

    Hollow Coves - Coastline

    3:55

    ♫ Buy :
    -

    ▼ Follow and Support Hollow Coves :
    ► Soundcloud :
    ► Facebook :
    ► Twitter :

    Thank you so much for watching this video .Please make sure to subscribe to my channel ,you can do so by clicking the subscribe button right below the video .

    Vibe Jaron : ♫Hear What u love♫





    No copyright infringement intended. Video will be removed immediately if requested by the copyright owner.We respect and appreciate each and every artists work.There is never a need to strike a video down when you can get it removed within the same day and keep the channel and yourself happy.
    For any copyright issues please email us at jaronmusixpromo@gmail.com

  • desc

    Hollow Coves - Home | Sofar Brisbane

    3:56

    Hollow Coves performing Home at Sofar Brisbane on November 16th, 2016
    Sofar puts on hundreds of intimate shows each month around the world. Find an upcoming date in your city: 

    For a new gig every day, along with playlists, features and more, subscribe to Sofar here:

    Find us on Facebook and Twitter for more information -






    Artist: Hollow Coves




    Filmed, Edited & Audio by: Why Not? Films

  • desc

    Hollow Coves - Ran Away • Mokum Sessions #383

    4:13

    Subscribe to discover more great music:

    Soo glad to meet up with these guys again. We first met them at Festival The Brave where we filmed their song 'We Will Run'. And now, right before their Paradiso Show, we filmed this gem. Hope you like it :)

    Mokum Sessions strives to deliver in your face acoustic music videos of talented musicians, filmed in beautiful Amsterdam.

    Produced by Wheelhouse Productions:

    Camera: Jesse Schoenmakers
    Audio: Michel Loeve
    Productie: Alessia Comodini & Michel Loeve
    Edit: Jesse Schoenmakers & Cyrion Willems

    Find us on:
    Facebook •
    Twitter •
    Instagram •
    Spotify •
    Website •

    Find Hollow Coves:
    Facebook •
    Twitter •
    Instagram •
    Website •

  • desc

    Hollow Coves - These Memories

    5:10

    Hollow Coves is an Indie Folk band formed in Brisbane, Australia in 2013 by Ryan Henderson and Matt Carins. Delivering an earthy folk sound, the band meshes simple acoustic melodies, vocal harmonies, and impactful themes. After releasing Drifting, their first EP, in late 2014, the band quickly garnered an international following with their hit single ‘The Woods’. Now, they are finally back with another amazing EP called 'Wanderlust'. 'These Memories' is the sixth track and one of my favorites!

    Get the new EP!


    Check them out on Social Media!



    I do not own this song, all rights belong to their respective owners.

    Enjoy! :)

  • desc

    Hollow Coves - Ran Away | Monaco Sessions

    4:01

    We made a little Live-Session with the two guys from Hollow Coves. Enjoy their great voices!

    SUBSCRIBE -
    FACEBOOK -
    INSTAGRAM -
    WEBSITE -

    More about the artist:
    WEBSITE -
    FACEBOOK -

  • desc

    Home - Hollow Coves

    3:30

    ホーム ホロウコーヴス

    Standard tuning Capo on 6th

    Intro&Verse1
    -----------------------------------------------------------------------------------------------
    ---------3------0--------------0----------------------3------0--------------0------------
    -------------------------2--------------0------------------------------2--------------0----
    -----0--------------0------0--------------0------0--------------0------0--------------0-
    -----------------------------------------------------------------------------------------------
    -3----------3----------0----------0----------3----------3----------0----------0--------

    -----------------------------------------------------------------------------------------------
    ---------5------3------0--------------0------7--------------7------0--------------0----
    ---------------------------------0----------------------0----------------------0------------
    -----0--------------0------0--------------0------0--------------0------0--------------0-
    -3----------3----------------------------------5----------5---------------------------------
    -------------------------3----------3----------------------------------3----------3---------

    Chorus1
    ------------------------------------------------------------------------------------------------
    -0--------------0------1--------------1------0--------------0------0--------------0----
    ---------0----------------------0----------------------0----------------------0------------
    -----2--------------2------2--------------2------0--------------0------0--------------0- x3
    -------------2----------3----------3--------------------------------------------------------
    -0----------------------------------------------3----------3----------3----------3---------

    --------------------------------------------------------------------------------------------------
    -0--------------0-------------------------------------------------------------------------------
    ---------0----------------------0--------------0-------------0----------0--------------0----
    -----2--------------2--4--------------4-------------0--------------0----------0------------
    -------------2----------5--5------5------5---------------------------------------------------
    -0----------------------------------------------3--3-----3------3------3--3------3------3-

    Verse2 Bar2
    -----------------------------------------------------------------------------------------------
    ---------5------3------0--------------0------7--------------7----7---------------7-----
    ---------------------------------0----------------------0---------------------0-------------
    -----0--------------0------0--------------0------0--------------0------0-------------0-
    -3----------3----------------------------------5----------5--------5-----------5---------
    -------------------------3----------3--------------------------------------------------------

    Bar4
    --------------------------------------------------------------------------------------------------------------------------
    ---------5------3------0--------------0------7--------------7----5---------------5------5--------------5--------
    ---------------------------------0----------------------0---------------------0----------------------0----------------
    -----0--------------0------0--------------0------0--------------0------0-------------0------0--------------0----
    -3----------3----------------------------------5----------5--------3-----------3----------3----------3------------
    -------------------------3----------3------------------------------------------------------------------------------------

    -------------------------------------------------
    -3--------------3------0--------------3------
    ---------0----------------------0--------------
    -----0--------------0------0--------------0---
    -3----------3----------3----------3-----------
    ---------------------------------------------------

    Outro
    -----------------------------0--------------------------------------------------------------0--------------------------------
    -------------3------------------------------3------------------------------1------------------------------1----------------
    -----0--------------0--------------0--------------0------0------0--------------0--------------0--------------0------0-
    ---------4--------------4--------------4--------------4--------------2--------------2--------------2--------------2----
    -5--------------5--------------5--------------5--------------3--------------3--------------3--------------3-------------
    -------------------------------------------------------------------------------------------------------------------------------

    the same arpeggio pattern with
    0
    0
    0
    2
    2
    0

    SORRY !!! the word limit is over so that I can't finish it .....

  • desc

    Hollow Coves - Interlude

    59

    ✖ For Promo Submissions ✖
    ● hello@soundicate.pro
    💌 Close your eyes! Take a deep breath, relax and imagine yourself exactly as you wish to be.

    ► Get this Track!!


    ► Follow Hollow Coves:
    ● Soundcloud:
    ● Twitter:
    ● Facebook:

    📷 Photo by Allef Vinicius on Unsplash


    ► Follow The Good Melodies:
    ● Soundcloud:
    ● Twitter:
    ● YouTube:

    ● Instagram:

    ► Donate here via Paypal:

    ● All the donation will be spent to improve this Channel (new laptop,motion graphics ...)

    ► Show The Artist Support By Visiting Their Social Media Links And Buying There Music.

    ► Submit your track here: thegoodmelodies.contact@gmail.com

    ► If any producer or label has an issue with any of the uploads please kindly contact me via email : ( thegoodmelodies.contact@gmail.com) and I will delete it immediately.

    ● Cheers

  • desc

    Hollow Coves - The Woods

    3:57

    Electro Posé - Inside Your Minds
    Subscribe @
    Free Download @

    ⚬ Electro Posé - Inside Your Minds
    II Facebook :
    II Spotify :
    II Soundcloud :
    II Twitter :
    III All Electro Posé videos :

    ◆ Rami



    ◆ Mitchell Southam



    ◆ Picture


    Track Submissions : electroposee@gmail.com
    For copyright issues, mail us : electroposee@gmail.com

  • desc

    Hollow Coves - These Memories Legendado

    5:10

    *Sigrid - Dynamite* [Legendado]



    *Sasha Sloan - Runaway* [Legendado]



    *Sasha Sloan - Ready Yet* [Legendado]



    *Michael Schulte - Falling Apart* [Legendado]



    *Michael Schulte - End of My Days* [Legendado]

  • desc

    The woods: sub español Hollow coves

    4:03

  • desc

    Hollow Coves - The Woods

    3:55

    Hollow Coves - The Woods Tradução / Legendado
    (The Woods = O Bosque/A Floresta)
    (Video Oficial:
    (Desculpem erro na legenda)
    👌😁

  • desc

    Coastline - Hollow Coves

    4:26

    コーストライン ホロウコーヴス

    Tuning CGAGGD Capo on 7th

    Intro
    --------------------------------------------------------------------------------------
    --------------------------------------------------------------------------------------
    -----0-----------0-----------0-------------0----------0--------------0----------
    -----------2--------------------------0-------------------------4------------------- x2
    -----0--------0--------------4----------4-------------2----------2---------------
    -0------0----------------4-------4----------------2------2-----------------------

    Verse1
    --------------------------------------------------------------------------------------
    --------------------------------------------------------------------------------------
    -----0-----------0-----------0-------------0----------0--------------0----------
    -----------2--------------------------0-------------------------4------------------- x2
    -----0--------0--------------4----------4-------------2----------2---------------
    -0------0----------------4-------4----------------2------2-----------------------

    --------------------------------------------------------------------------------------
    --------------------------------------------------------------------------------------
    -----0-----------0-----------0-------------0----------0--------------0----------
    -----------4--------------------------2-------------------------4-------------------
    -----4--------2--------------0----------0-------------2----------2---------------
    -4------2----------------0-------0----------------2------2-----------------------

    --------------------------------------------------------------------------------------
    --------------------------------------------------------------------------------------
    -----0-----------0-----------0-------------0----------0--------------0----------
    -----------2--------------------------0-------------------------4------------------- x2
    -----0--------0--------------4----------4-------------2----------2---------------
    -0------0----------------4-------4----------------2------2-----------------------

    Chorus1
    -------------------------------------------------------------------------------
    -------------------------------------------------------------------------------
    --------------------0-----------0-----------------------0-----------0------
    ---------------------------2------------------------------------0------------ x2
    -2s4--2--0-----0---------0------2s4--2--0-----4--------4----------
    -----------------0------0----------------------------4-----4----------------

    ----------------------------------------------------------------------------------0----
    ----------------------------------------------------------------------------------0----
    -----0-----------0-----------0-------------0----------0--------------0------0----
    -----------4--------------------------9-------------------------2--------------4----
    -----2--------0--------------7----------7-------------0----------0----------2-----
    -2------2----------------7-------7----------------0------0------------------2-----

    Verse2
    0 0 0
    0 0 0
    0 0 0
    2 0 4 x2
    0 4 2
    0 4 2

    0 0 0 0
    0 0 0 0
    0 0 0 0
    5 4 2 4
    4 2 0 2
    4 2 0 2

    0 0 0
    0 0 0
    0 0 0
    2 0 4 x2
    0 4 2
    0 4 2

    Chorus2
    0 0 0
    0 0 0
    0 0 0
    2 0 x2 4
    2s4--2--0 0 2s4--2--0 4 2
    0 4 2

    Bridge&Chorus3
    0 0 0 0
    0 0 0 0
    2 4 2 0
    2 2 0 4
    0 0 4 2
    0 0 4 2

    -------------------------------------------------------------------------------
    -------------------------------------------------------------------------------
    --------------------0-----------0-----------------------0-----------0------
    ---------------------------2------------------------------------0------------ x2
    -2s4--2--0-----0---------0------2s4--2--0-----4--------4----------
    -----------------0------0----------------------------4-----4----------------

    ------------------------------------------------------0~
    ------------------------------------------------------0~
    -----0-----------0-----------0-------------0------0~
    -----------4--------------------------9-------------2~
    -----2--------0--------------7----------7---------0~
    -2------2----------------7-------7----------------0~

  • desc

    Liu, Hollow Coves and Woak - Coastline

    3:03

    Liu, Hollow Coves and Woak - Coastline
    Add us on Snapchat: cymsnap
    Follow us on Spotify ➜


    Stream/Download Liu, Hollow Coves and Woak - Coastline here:
    ↪︎



    ✅ Don't forget to Subscribe for more new music daily!
    • Subscribe:


    🎧 ChillYourMind Playlist's: 🎧
    • ChillYourMind Uploads:
    • Deep House Music:
    • Tropical House Music:
    • Mixes:
    • Electronic Pop/Chill Pop:
    • Study Music, Late Night Vibes, Good Vibes, Summer Music:


    ➖ Follow ChillYourMind
    Spotify:
    Deezer:
    Snapchat:
    Facebook:
    Twitter:
    SoundCloud:
    Instagram:


    • Follow Liu



    Follow Woak




    • Follow Hollow Coves





    • Follow Spinnin' Records










    • Photo: I forgot who is the photographer behind this work, please let me know if you know the name, so I can properly credit him.



    The most chilled-out community on YouTube!
    ChillYourMind is based on beautiful and positive vibes such as: Deep House, Tropical House, Chill House, Electronic Pop, Chill Pop and many more electronic dance music sounds.
    Good vibes only.

    Peace.

    Liu, Hollow Coves and Woak - Coastline
    #deephouse #tropicalhouse #nudisco #chill #chillout #chillyourmind #relax #house #housemusic #dance #summer #music

  • desc

    Hollow Coves - The Woods Audio

    4:01

    Hollow Coves - The Woods (Acoustic) [Audio]
    Available Now

    Apple:
    Spotify:
    Google Play:
    Amazon:


  • desc

    Hollow Coves - Coastline

    3:52

    Hollow Coves are an Indie Folk band formed in Brisbane, Australia in 2013. Delivering an earthy folk sound, the band meshes simple acoustic melodies, vocal harmonies, and impactful themes . After releasing Drifting, their first EP, in late 2014, the band quickly garnered an international following with their hit single ‘The Woods’. This track is the newly released single that I couldn't stop listening over the last few days!

    Support the artist:
    Facebook:
    Soundcloud:

    I do not own this song, all rights belong to their respective owners.

    Enjoy! :)

  • desc

    Hollow Coves Europe/UK Tour Video 2017

    3:56

    Earlier this year we spent about 3 months in Europe/UK. During this time we played shows, wrote music, met so many wonderful people, and saw so many beautiful places.

    We took my camera with us and managed to capture some of the wonderful experiences we had. Here is a glimpse into some of the best moments we experienced over those 3 months.

  • desc

    Hollow Coves - We Will Run

    4:14

    Hollow Coves

  • desc

    Hollow Coves - The Woods

    4:21

    Subscribe for more music :
    Get The Sound :
    ✒︎ Facebook :
    ✒︎ Soundcloud :
    ✒︎ Twitter :
    ✒︎ Instagram :

    Alex Schulz :
    ✒︎ Facebook :
    ✒︎ Soundcloud :


    We have no rights on this song, if a producer or label has an issue with any of the uploads, please get in contact (getthesound2@gmail.com) and we will take the appropriate measures (including artists of the images used)

  • desc

    Liu, Hollow Coves and Woak - Coastline

    3:43

    Liu, Hollow Coves and Woak - Coastline is OUT NOW on SOURCE! Like this track? Download on Beatport or add it to your favourite Spotify/Apple Music playlist by clicking HERE:

    Join our Spinnin' Records Top 100 Playlist ►

    Liu, Hollow Coves and Woak teamed up for the delightful record Coastline! It floods with a pleasing and melancholic vibe, enhanced by the serene vocals, additional bass lines and soothing guitar plucks. This song is required for every long beach walk and all cozy bonfires!
    ---

    The Spinnin’ Records YouTube channel is the home for all music videos of the world’s leading dance record label!

    We feature the latest music videos by Spinnin’ artists like Oliver Heldens, Sam Feldt, KSHMR, Ummet Ozcan, Blasterjaxx, Merk & Kremont, Timmy Trumpet, Tujamo, Alok, Curbi, Mike Williams, Lucas & Steve and many, many more! Expect daily uploads of official music videos, lyric videos and artwork videos across genres like dance, house, electro house, future house, deep house, big room and trap.

    Make sure to subscribe to Spinnin' Records:
    ..and turn on notifications to stay updated with all new uploads!🔔

    Follow Spinnin’ Records:





  • desc

    Hollow Coves - Ran Away

    4:16

    ▶ Please enjoy and don't forget to subscribe.
    ▶ You can follow Hollow Coves on:
    • Official Website:
    • Facebook:
    • Twitter:
    • Instagram:
    • YouTube:
    • Spotify:
    • SoundCloud:

    ▶ Download the song on:
    • iTunes:
    • Google Play:

    ▶ You can follow SN/SG on:
    • Facebook:
    • Twitter:
    • SoundCloud:
    • Spotify:

    ▶ Support SN/SG
    • Buy Me A Coffee:
    • PayPal:

    ▶ Genre:
    • Indie Folk/Alternative
    • If you like the band don't forget to support them too!!

    ▶ Background Wallpaper by Sébastien Beauchamp


    ▶ Lyrics

    • Ran Away

    There was a time when I saw you
    as someone that I could hold on to
    I wanted to be there for you
    now we’ve slowly grown apart

    you had the whole world handed to you
    but you started to change and you threw it away
    for a lie that was caught in the shadows
    pulling you away from home
    leaving all you’ve ever known

    you ran away and you lost your way
    you ran away and it’s not the same

    after all of the things that we’ve been through
    now I feel like I don’t even know you
    you’re the shell of a man that I once knew
    trying to find his way back home
    hoping that the ache will go

    you ran away and you lost your way
    you ran away and it’s not the same

    my broken home
    and these weary bones
    you’ve come and you’ve gone
    now I’m all alone
    my broken home
    and these weary bones
    you’ve come and you’ve gone
    now I’m all alone

    you ran away and you lost your way
    you ran away and it’s not the same.

    ▶ Every single music in this channel was shared/published with the autorization of every band or the entity responsible.
    ▶ I don't have any rights or credits over any of these musics or images used in the video.
    ▶ Every right and credit of the song belongs to the band or their labels, producers, etc.
    ▶ If you wish that I remove any of the music video from my channel, please contact me and I'll take the necessary action immediately.
    ▶ Florin_batata@hotmail.com

  • desc

    Hollow Coves // Coastline Legendado

    3:55

    Legendado por: Atlas

    Letra: I'm leaving home for the Coastline
    Some place under the sun
    I feel my heart for the first time
    Cause now I'm moving on yeah, I'm moving on

    And there's a place that I've dreamed of
    Where I can free my mind
    I hear the sounds of the season
    And lose all, sense of time

    I'm moving far away
    To a sunny place
    Where it's just you and me
    Feels like we're in a dream
    You know what I mean

    The summer air by the seaside
    The way it fills our lungs
    The fire burns in the night sky
    This life will keep us young yeah, keep us young

    And we will sleep by the ocean
    Our hearts will move with the tide
    And we will wake in the morning
    To see the sun, paint the sky

    I'm moving far away
    To a sunny place
    Where it's just you and me
    Feels like we're in a dream
    You know what I mean

    I'm moving far away
    To a sunny place
    Where it's just you and me
    Feels like we're in a dream
    You know what I mean

    I'm moving far away
    To a sunny place
    Where it's just you and me
    Feels like we're in a dream
    You know what I mean

  • desc

    Hollow Coves - Coastline

    4:48

    WOGN - A daily wave of indie music

    Support the artists

    Hollow Coves :





    Eden Fox :




    Picture
    © Andrew Barnes :

    Wave Of Good Noise


    We do not own the rights of the music. If any producer or label has an issue with this song, please get in contact with us and we will delete it immediately.

  • desc

    Hollow Coves - The Woods

    3:57

    - The Best Electronic Music For You -
    Hollow Coves - The Woods (Remix)

    ------------------------------------------------------------------------------------------------------------------------------
    - Facebook:
    ▶️
    - Subscribe my channel to listen all the best music:
    ▶️
    - Soundcloud:
    ▶️

  • desc

    Hollow Coves - These Memories

    4:48

    These Memories
    We found our place
    On the branch of an old oak tree
    Our feet would sway
    To a voice in the breeze

    And birds would sing
    On the banks of a narrow stream
    These memories will stay with me

    Oh

    We make our way
    To a hill beside the sea
    With salt in the air
    And sand on our feet

    We fought the Sun
    As a burn upon our skin
    These memories will stay with me

    Now I am far away
    These memories still remain
    Now I'm far away
    You stay with me the same

    Oh

    Now I'm far away
    These memories still remain
    Now I'm far away
    You stay with me the same

  • desc

    Hollow Coves - The Woods

    4:07

    Subscribe to MrRevillz:

    Download:
    Listen on Spotify:

    • Follow MrRevillz
    Youtube -
    Facebook -
    Soundcloud -
    Spotify -
    Twitter -
    Instagram -
    Snapchat - MrRevillz

    • Follow Ghosts



    • Follow Hollow Coves



    • Picture


    For any business enquiries, copyright infringements please do not hesitate to contact us - Info@MrRevillz.com

Shares

x

Check Also

Menu